ISO-10303-21;
HEADER;
/* Generated by software containing ST-Developer
 * from STEP Tools, Inc. (www.steptools.com) 
 */

FILE_DESCRIPTION(
/* description */ (''),
/* implementation_level */ '2;1');

FILE_NAME(
/* name */ 
'Q:\\Ric010\\FF7\\FIPlastiCAD\\FIP\\Lavoro\\PVC Fittings\\PVC Fittings
 STEP\\RFV\\RFV034038.ipt.stp',
/* time_stamp */ '2013-10-01T14:53:19+02:00',
/* author */ ('bfaro'),
/* organization */ (''),
/* preprocessor_version */ 'ST-DEVELOPER v15.2',
/* originating_system */ 'Autodesk Inventor 2014',
/* authorisation */ '');

FILE_SCHEMA (('AUTOMOTIVE_DESIGN { 1 0 10303 214 3 1 1 }'));
ENDSEC;

DATA;
#10=SHAPE_REPRESENTATION_RELATIONSHIP('SRR','None',#585,#11);
#11=ADVANCED_BREP_SHAPE_REPRESENTATION($,(#336),#576);
#12=CONICAL_SURFACE($,#357,15.5,75.);
#13=CONICAL_SURFACE($,#370,8.5375,24.3290416181837);
#14=FACE_BOUND($,#85,.T.);
#15=FACE_BOUND($,#87,.T.);
#16=FACE_BOUND($,#89,.T.);
#17=FACE_BOUND($,#91,.T.);
#18=FACE_BOUND($,#93,.T.);
#19=FACE_BOUND($,#95,.T.);
#20=FACE_BOUND($,#97,.T.);
#21=FACE_BOUND($,#99,.T.);
#22=FACE_BOUND($,#100,.T.);
#23=FACE_BOUND($,#101,.T.);
#24=FACE_BOUND($,#103,.T.);
#25=FACE_BOUND($,#104,.T.);
#26=FACE_BOUND($,#105,.T.);
#27=FACE_BOUND($,#107,.T.);
#28=FACE_BOUND($,#109,.T.);
#29=FACE_BOUND($,#111,.T.);
#30=FACE_BOUND($,#113,.T.);
#31=CIRCLE($,#347,13.2205);
#32=CIRCLE($,#348,13.2205);
#33=CIRCLE($,#350,13.5);
#34=CIRCLE($,#352,13.5);
#35=CIRCLE($,#354,17.);
#36=CIRCLE($,#356,17.);
#37=CIRCLE($,#359,11.);
#38=CIRCLE($,#361,11.);
#39=CIRCLE($,#363,8.65);
#40=CIRCLE($,#365,8.65);
#41=CIRCLE($,#367,7.475);
#42=CIRCLE($,#369,7.475);
#43=CIRCLE($,#371,9.6);
#44=CIRCLE($,#373,9.6);
#45=CYLINDRICAL_SURFACE($,#346,13.2205);
#46=CYLINDRICAL_SURFACE($,#351,13.5);
#47=CYLINDRICAL_SURFACE($,#355,17.);
#48=CYLINDRICAL_SURFACE($,#360,11.);
#49=CYLINDRICAL_SURFACE($,#364,8.65);
#50=CYLINDRICAL_SURFACE($,#368,7.475);
#51=CYLINDRICAL_SURFACE($,#372,9.6);
#52=STYLED_ITEM($,(#594),#320);
#53=STYLED_ITEM($,(#594),#331);
#54=STYLED_ITEM($,(#593),#336);
#55=FACE_OUTER_BOUND($,#76,.T.);
#56=FACE_OUTER_BOUND($,#77,.T.);
#57=FACE_OUTER_BOUND($,#78,.T.);
#58=FACE_OUTER_BOUND($,#79,.T.);
#59=FACE_OUTER_BOUND($,#80,.T.);
#60=FACE_OUTER_BOUND($,#81,.T.);
#61=FACE_OUTER_BOUND($,#82,.T.);
#62=FACE_OUTER_BOUND($,#83,.T.);
#63=FACE_OUTER_BOUND($,#84,.T.);
#64=FACE_OUTER_BOUND($,#86,.T.);
#65=FACE_OUTER_BOUND($,#88,.T.);
#66=FACE_OUTER_BOUND($,#90,.T.);
#67=FACE_OUTER_BOUND($,#92,.T.);
#68=FACE_OUTER_BOUND($,#94,.T.);
#69=FACE_OUTER_BOUND($,#96,.T.);
#70=FACE_OUTER_BOUND($,#98,.T.);
#71=FACE_OUTER_BOUND($,#102,.T.);
#72=FACE_OUTER_BOUND($,#106,.T.);
#73=FACE_OUTER_BOUND($,#108,.T.);
#74=FACE_OUTER_BOUND($,#110,.T.);
#75=FACE_OUTER_BOUND($,#112,.T.);
#76=EDGE_LOOP($,(#222,#223,#224,#225));
#77=EDGE_LOOP($,(#226,#227,#228,#229));
#78=EDGE_LOOP($,(#230,#231,#232,#233));
#79=EDGE_LOOP($,(#234,#235,#236,#237));
#80=EDGE_LOOP($,(#238,#239,#240,#241));
#81=EDGE_LOOP($,(#242,#243,#244,#245));
#82=EDGE_LOOP($,(#246,#247,#248,#249));
#83=EDGE_LOOP($,(#250,#251,#252,#253));
#84=EDGE_LOOP($,(#254));
#85=EDGE_LOOP($,(#255));
#86=EDGE_LOOP($,(#256));
#87=EDGE_LOOP($,(#257));
#88=EDGE_LOOP($,(#258));
#89=EDGE_LOOP($,(#259));
#90=EDGE_LOOP($,(#260));
#91=EDGE_LOOP($,(#261));
#92=EDGE_LOOP($,(#262));
#93=EDGE_LOOP($,(#263));
#94=EDGE_LOOP($,(#264,#265,#266,#267,#268,#269,#270,#271));
#95=EDGE_LOOP($,(#272));
#96=EDGE_LOOP($,(#273,#274,#275,#276,#277,#278,#279,#280));
#97=EDGE_LOOP($,(#281));
#98=EDGE_LOOP($,(#282));
#99=EDGE_LOOP($,(#283));
#100=EDGE_LOOP($,(#284));
#101=EDGE_LOOP($,(#285));
#102=EDGE_LOOP($,(#286));
#103=EDGE_LOOP($,(#287));
#104=EDGE_LOOP($,(#288));
#105=EDGE_LOOP($,(#289));
#106=EDGE_LOOP($,(#290));
#107=EDGE_LOOP($,(#291));
#108=EDGE_LOOP($,(#292));
#109=EDGE_LOOP($,(#293));
#110=EDGE_LOOP($,(#294));
#111=EDGE_LOOP($,(#295));
#112=EDGE_LOOP($,(#296));
#113=EDGE_LOOP($,(#297));
#114=LINE($,#475,#130);
#115=LINE($,#477,#131);
#116=LINE($,#478,#132);
#117=LINE($,#485,#133);
#118=LINE($,#486,#134);
#119=LINE($,#493,#135);
#120=LINE($,#494,#136);
#121=LINE($,#501,#137);
#122=LINE($,#502,#138);
#123=LINE($,#509,#139);
#124=LINE($,#510,#140);
#125=LINE($,#517,#141);
#126=LINE($,#518,#142);
#127=LINE($,#525,#143);
#128=LINE($,#526,#144);
#129=LINE($,#531,#145);
#130=VECTOR($,#379,7.58158345842408);
#131=VECTOR($,#380,11.8050865276332);
#132=VECTOR($,#381,7.58158345842408);
#133=VECTOR($,#384,7.58158345842408);
#134=VECTOR($,#385,11.8050865276332);
#135=VECTOR($,#388,7.58158345842408);
#136=VECTOR($,#389,11.8050865276332);
#137=VECTOR($,#392,7.58158345842408);
#138=VECTOR($,#393,11.8050865276332);
#139=VECTOR($,#396,7.58158345842408);
#140=VECTOR($,#397,11.8050865276332);
#141=VECTOR($,#400,7.58158345842408);
#142=VECTOR($,#401,11.8050865276332);
#143=VECTOR($,#404,7.58158345842408);
#144=VECTOR($,#405,11.8050865276332);
#145=VECTOR($,#408,11.8050865276332);
#146=(
BOUNDED_CURVE()
B_SPLINE_CURVE(2,(#471,#472,#473),.UNSPECIFIED.,.F.,.F.)
B_SPLINE_CURVE_WITH_KNOTS((3,3),(0.,1.1821842111162),.UNSPECIFIED.)
CURVE()
GEOMETRIC_REPRESENTATION_ITEM()
RATIONAL_B_SPLINE_CURVE((1.,1.0823922002924,1.))
REPRESENTATION_ITEM($)
);
#147=(
BOUNDED_CURVE()
B_SPLINE_CURVE(2,(#481,#482,#483),.UNSPECIFIED.,.F.,.F.)
B_SPLINE_CURVE_WITH_KNOTS((3,3),(0.,1.1821842111162),.UNSPECIFIED.)
CURVE()
GEOMETRIC_REPRESENTATION_ITEM()
RATIONAL_B_SPLINE_CURVE((1.,1.0823922002924,1.))
REPRESENTATION_ITEM($)
);
#148=(
BOUNDED_CURVE()
B_SPLINE_CURVE(2,(#489,#490,#491),.UNSPECIFIED.,.F.,.F.)
B_SPLINE_CURVE_WITH_KNOTS((3,3),(0.,1.18218421111619),.UNSPECIFIED.)
CURVE()
GEOMETRIC_REPRESENTATION_ITEM()
RATIONAL_B_SPLINE_CURVE((1.,1.0823922002924,1.))
REPRESENTATION_ITEM($)
);
#149=(
BOUNDED_CURVE()
B_SPLINE_CURVE(2,(#497,#498,#499),.UNSPECIFIED.,.F.,.F.)
B_SPLINE_CURVE_WITH_KNOTS((3,3),(0.,1.18218421111619),.UNSPECIFIED.)
CURVE()
GEOMETRIC_REPRESENTATION_ITEM()
RATIONAL_B_SPLINE_CURVE((1.,1.08239220029238,1.))
REPRESENTATION_ITEM($)
);
#150=(
BOUNDED_CURVE()
B_SPLINE_CURVE(2,(#505,#506,#507),.UNSPECIFIED.,.F.,.F.)
B_SPLINE_CURVE_WITH_KNOTS((3,3),(0.,1.1821842111162),.UNSPECIFIED.)
CURVE()
GEOMETRIC_REPRESENTATION_ITEM()
RATIONAL_B_SPLINE_CURVE((1.,1.0823922002924,1.))
REPRESENTATION_ITEM($)
);
#151=(
BOUNDED_CURVE()
B_SPLINE_CURVE(2,(#513,#514,#515),.UNSPECIFIED.,.F.,.F.)
B_SPLINE_CURVE_WITH_KNOTS((3,3),(0.,1.1821842111162),.UNSPECIFIED.)
CURVE()
GEOMETRIC_REPRESENTATION_ITEM()
RATIONAL_B_SPLINE_CURVE((1.,1.08239220029238,1.))
REPRESENTATION_ITEM($)
);
#152=(
BOUNDED_CURVE()
B_SPLINE_CURVE(2,(#521,#522,#523),.UNSPECIFIED.,.F.,.F.)
B_SPLINE_CURVE_WITH_KNOTS((3,3),(0.,1.1821842111162),.UNSPECIFIED.)
CURVE()
GEOMETRIC_REPRESENTATION_ITEM()
RATIONAL_B_SPLINE_CURVE((1.,1.08239220029238,1.))
REPRESENTATION_ITEM($)
);
#153=(
BOUNDED_CURVE()
B_SPLINE_CURVE(2,(#528,#529,#530),.UNSPECIFIED.,.F.,.F.)
B_SPLINE_CURVE_WITH_KNOTS((3,3),(0.,1.1821842111162),.UNSPECIFIED.)
CURVE()
GEOMETRIC_REPRESENTATION_ITEM()
RATIONAL_B_SPLINE_CURVE((1.,1.08239220029239,1.))
REPRESENTATION_ITEM($)
);
#154=VERTEX_POINT($,#469);
#155=VERTEX_POINT($,#470);
#156=VERTEX_POINT($,#474);
#157=VERTEX_POINT($,#476);
#158=VERTEX_POINT($,#480);
#159=VERTEX_POINT($,#484);
#160=VERTEX_POINT($,#488);
#161=VERTEX_POINT($,#492);
#162=VERTEX_POINT($,#496);
#163=VERTEX_POINT($,#500);
#164=VERTEX_POINT($,#504);
#165=VERTEX_POINT($,#508);
#166=VERTEX_POINT($,#512);
#167=VERTEX_POINT($,#516);
#168=VERTEX_POINT($,#520);
#169=VERTEX_POINT($,#524);
#170=VERTEX_POINT($,#533);
#171=VERTEX_POINT($,#535);
#172=VERTEX_POINT($,#538);
#173=VERTEX_POINT($,#541);
#174=VERTEX_POINT($,#544);
#175=VERTEX_POINT($,#547);
#176=VERTEX_POINT($,#551);
#177=VERTEX_POINT($,#554);
#178=VERTEX_POINT($,#557);
#179=VERTEX_POINT($,#560);
#180=VERTEX_POINT($,#563);
#181=VERTEX_POINT($,#566);
#182=VERTEX_POINT($,#569);
#183=VERTEX_POINT($,#572);
#184=EDGE_CURVE($,#154,#155,#146,.T.);
#185=EDGE_CURVE($,#156,#154,#114,.T.);
#186=EDGE_CURVE($,#156,#157,#115,.T.);
#187=EDGE_CURVE($,#157,#155,#116,.T.);
#188=EDGE_CURVE($,#158,#154,#147,.T.);
#189=EDGE_CURVE($,#159,#158,#117,.T.);
#190=EDGE_CURVE($,#159,#156,#118,.T.);
#191=EDGE_CURVE($,#160,#158,#148,.T.);
#192=EDGE_CURVE($,#161,#160,#119,.T.);
#193=EDGE_CURVE($,#161,#159,#120,.T.);
#194=EDGE_CURVE($,#162,#160,#149,.T.);
#195=EDGE_CURVE($,#163,#162,#121,.T.);
#196=EDGE_CURVE($,#163,#161,#122,.T.);
#197=EDGE_CURVE($,#164,#162,#150,.T.);
#198=EDGE_CURVE($,#165,#164,#123,.T.);
#199=EDGE_CURVE($,#165,#163,#124,.T.);
#200=EDGE_CURVE($,#166,#164,#151,.T.);
#201=EDGE_CURVE($,#167,#166,#125,.T.);
#202=EDGE_CURVE($,#167,#165,#126,.T.);
#203=EDGE_CURVE($,#168,#166,#152,.T.);
#204=EDGE_CURVE($,#169,#168,#127,.T.);
#205=EDGE_CURVE($,#169,#167,#128,.T.);
#206=EDGE_CURVE($,#155,#168,#153,.T.);
#207=EDGE_CURVE($,#157,#169,#129,.T.);
#208=EDGE_CURVE($,#170,#170,#31,.T.);
#209=EDGE_CURVE($,#171,#171,#32,.T.);
#210=EDGE_CURVE($,#172,#172,#33,.T.);
#211=EDGE_CURVE($,#173,#173,#34,.T.);
#212=EDGE_CURVE($,#174,#174,#35,.T.);
#213=EDGE_CURVE($,#175,#175,#36,.T.);
#214=EDGE_CURVE($,#176,#176,#37,.T.);
#215=EDGE_CURVE($,#177,#177,#38,.T.);
#216=EDGE_CURVE($,#178,#178,#39,.T.);
#217=EDGE_CURVE($,#179,#179,#40,.T.);
#218=EDGE_CURVE($,#180,#180,#41,.T.);
#219=EDGE_CURVE($,#181,#181,#42,.T.);
#220=EDGE_CURVE($,#182,#182,#43,.T.);
#221=EDGE_CURVE($,#183,#183,#44,.T.);
#222=ORIENTED_EDGE($,*,*,#184,.F.);
#223=ORIENTED_EDGE($,*,*,#185,.F.);
#224=ORIENTED_EDGE($,*,*,#186,.T.);
#225=ORIENTED_EDGE($,*,*,#187,.T.);
#226=ORIENTED_EDGE($,*,*,#188,.F.);
#227=ORIENTED_EDGE($,*,*,#189,.F.);
#228=ORIENTED_EDGE($,*,*,#190,.T.);
#229=ORIENTED_EDGE($,*,*,#185,.T.);
#230=ORIENTED_EDGE($,*,*,#191,.F.);
#231=ORIENTED_EDGE($,*,*,#192,.F.);
#232=ORIENTED_EDGE($,*,*,#193,.T.);
#233=ORIENTED_EDGE($,*,*,#189,.T.);
#234=ORIENTED_EDGE($,*,*,#194,.F.);
#235=ORIENTED_EDGE($,*,*,#195,.F.);
#236=ORIENTED_EDGE($,*,*,#196,.T.);
#237=ORIENTED_EDGE($,*,*,#192,.T.);
#238=ORIENTED_EDGE($,*,*,#197,.F.);
#239=ORIENTED_EDGE($,*,*,#198,.F.);
#240=ORIENTED_EDGE($,*,*,#199,.T.);
#241=ORIENTED_EDGE($,*,*,#195,.T.);
#242=ORIENTED_EDGE($,*,*,#200,.F.);
#243=ORIENTED_EDGE($,*,*,#201,.F.);
#244=ORIENTED_EDGE($,*,*,#202,.T.);
#245=ORIENTED_EDGE($,*,*,#198,.T.);
#246=ORIENTED_EDGE($,*,*,#203,.F.);
#247=ORIENTED_EDGE($,*,*,#204,.F.);
#248=ORIENTED_EDGE($,*,*,#205,.T.);
#249=ORIENTED_EDGE($,*,*,#201,.T.);
#250=ORIENTED_EDGE($,*,*,#206,.F.);
#251=ORIENTED_EDGE($,*,*,#187,.F.);
#252=ORIENTED_EDGE($,*,*,#207,.T.);
#253=ORIENTED_EDGE($,*,*,#204,.T.);
#254=ORIENTED_EDGE($,*,*,#208,.F.);
#255=ORIENTED_EDGE($,*,*,#209,.T.);
#256=ORIENTED_EDGE($,*,*,#210,.F.);
#257=ORIENTED_EDGE($,*,*,#208,.T.);
#258=ORIENTED_EDGE($,*,*,#211,.F.);
#259=ORIENTED_EDGE($,*,*,#210,.T.);
#260=ORIENTED_EDGE($,*,*,#212,.F.);
#261=ORIENTED_EDGE($,*,*,#211,.T.);
#262=ORIENTED_EDGE($,*,*,#213,.F.);
#263=ORIENTED_EDGE($,*,*,#212,.T.);
#264=ORIENTED_EDGE($,*,*,#184,.T.);
#265=ORIENTED_EDGE($,*,*,#206,.T.);
#266=ORIENTED_EDGE($,*,*,#203,.T.);
#267=ORIENTED_EDGE($,*,*,#200,.T.);
#268=ORIENTED_EDGE($,*,*,#197,.T.);
#269=ORIENTED_EDGE($,*,*,#194,.T.);
#270=ORIENTED_EDGE($,*,*,#191,.T.);
#271=ORIENTED_EDGE($,*,*,#188,.T.);
#272=ORIENTED_EDGE($,*,*,#213,.T.);
#273=ORIENTED_EDGE($,*,*,#193,.F.);
#274=ORIENTED_EDGE($,*,*,#196,.F.);
#275=ORIENTED_EDGE($,*,*,#199,.F.);
#276=ORIENTED_EDGE($,*,*,#202,.F.);
#277=ORIENTED_EDGE($,*,*,#205,.F.);
#278=ORIENTED_EDGE($,*,*,#207,.F.);
#279=ORIENTED_EDGE($,*,*,#186,.F.);
#280=ORIENTED_EDGE($,*,*,#190,.F.);
#281=ORIENTED_EDGE($,*,*,#214,.F.);
#282=ORIENTED_EDGE($,*,*,#215,.F.);
#283=ORIENTED_EDGE($,*,*,#214,.T.);
#284=ORIENTED_EDGE($,*,*,#216,.F.);
#285=ORIENTED_EDGE($,*,*,#215,.T.);
#286=ORIENTED_EDGE($,*,*,#217,.F.);
#287=ORIENTED_EDGE($,*,*,#216,.T.);
#288=ORIENTED_EDGE($,*,*,#218,.F.);
#289=ORIENTED_EDGE($,*,*,#217,.T.);
#290=ORIENTED_EDGE($,*,*,#219,.F.);
#291=ORIENTED_EDGE($,*,*,#218,.T.);
#292=ORIENTED_EDGE($,*,*,#220,.F.);
#293=ORIENTED_EDGE($,*,*,#219,.T.);
#294=ORIENTED_EDGE($,*,*,#221,.F.);
#295=ORIENTED_EDGE($,*,*,#220,.T.);
#296=ORIENTED_EDGE($,*,*,#209,.F.);
#297=ORIENTED_EDGE($,*,*,#221,.T.);
#298=PLANE($,#338);
#299=PLANE($,#339);
#300=PLANE($,#340);
#301=PLANE($,#341);
#302=PLANE($,#342);
#303=PLANE($,#343);
#304=PLANE($,#344);
#305=PLANE($,#345);
#306=PLANE($,#349);
#307=PLANE($,#353);
#308=PLANE($,#358);
#309=PLANE($,#362);
#310=PLANE($,#366);
#311=PLANE($,#374);
#312=ADVANCED_FACE($,(#55),#298,.T.);
#313=ADVANCED_FACE($,(#56),#299,.T.);
#314=ADVANCED_FACE($,(#57),#300,.T.);
#315=ADVANCED_FACE($,(#58),#301,.T.);
#316=ADVANCED_FACE($,(#59),#302,.T.);
#317=ADVANCED_FACE($,(#60),#303,.T.);
#318=ADVANCED_FACE($,(#61),#304,.T.);
#319=ADVANCED_FACE($,(#62),#305,.T.);
#320=ADVANCED_FACE($,(#63,#14),#45,.T.);
#321=ADVANCED_FACE($,(#64,#15),#306,.T.);
#322=ADVANCED_FACE($,(#65,#16),#46,.T.);
#323=ADVANCED_FACE($,(#66,#17),#307,.T.);
#324=ADVANCED_FACE($,(#67,#18),#47,.T.);
#325=ADVANCED_FACE($,(#68,#19),#12,.T.);
#326=ADVANCED_FACE($,(#69,#20),#308,.T.);
#327=ADVANCED_FACE($,(#70,#21),#48,.T.);
#328=ADVANCED_FACE($,(#22,#23),#309,.T.);
#329=ADVANCED_FACE($,(#71,#24),#49,.F.);
#330=ADVANCED_FACE($,(#25,#26),#310,.T.);
#331=ADVANCED_FACE($,(#72,#27),#50,.F.);
#332=ADVANCED_FACE($,(#73,#28),#13,.F.);
#333=ADVANCED_FACE($,(#74,#29),#51,.F.);
#334=ADVANCED_FACE($,(#75,#30),#311,.T.);
#335=CLOSED_SHELL($,(#312,#313,#314,#315,#316,#317,#318,#319,#320,#321,
#322,#323,#324,#325,#326,#327,#328,#329,#330,#331,#332,#333,#334));
#336=MANIFOLD_SOLID_BREP('Solido1',#335);
#337=AXIS2_PLACEMENT_3D('placement',#467,#375,#376);
#338=AXIS2_PLACEMENT_3D($,#468,#377,#378);
#339=AXIS2_PLACEMENT_3D($,#479,#382,#383);
#340=AXIS2_PLACEMENT_3D($,#487,#386,#387);
#341=AXIS2_PLACEMENT_3D($,#495,#390,#391);
#342=AXIS2_PLACEMENT_3D($,#503,#394,#395);
#343=AXIS2_PLACEMENT_3D($,#511,#398,#399);
#344=AXIS2_PLACEMENT_3D($,#519,#402,#403);
#345=AXIS2_PLACEMENT_3D($,#527,#406,#407);
#346=AXIS2_PLACEMENT_3D($,#532,#409,#410);
#347=AXIS2_PLACEMENT_3D($,#534,#411,#412);
#348=AXIS2_PLACEMENT_3D($,#536,#413,#414);
#349=AXIS2_PLACEMENT_3D($,#537,#415,#416);
#350=AXIS2_PLACEMENT_3D($,#539,#417,#418);
#351=AXIS2_PLACEMENT_3D($,#540,#419,#420);
#352=AXIS2_PLACEMENT_3D($,#542,#421,#422);
#353=AXIS2_PLACEMENT_3D($,#543,#423,#424);
#354=AXIS2_PLACEMENT_3D($,#545,#425,#426);
#355=AXIS2_PLACEMENT_3D($,#546,#427,#428);
#356=AXIS2_PLACEMENT_3D($,#548,#429,#430);
#357=AXIS2_PLACEMENT_3D($,#549,#431,#432);
#358=AXIS2_PLACEMENT_3D($,#550,#433,#434);
#359=AXIS2_PLACEMENT_3D($,#552,#435,#436);
#360=AXIS2_PLACEMENT_3D($,#553,#437,#438);
#361=AXIS2_PLACEMENT_3D($,#555,#439,#440);
#362=AXIS2_PLACEMENT_3D($,#556,#441,#442);
#363=AXIS2_PLACEMENT_3D($,#558,#443,#444);
#364=AXIS2_PLACEMENT_3D($,#559,#445,#446);
#365=AXIS2_PLACEMENT_3D($,#561,#447,#448);
#366=AXIS2_PLACEMENT_3D($,#562,#449,#450);
#367=AXIS2_PLACEMENT_3D($,#564,#451,#452);
#368=AXIS2_PLACEMENT_3D($,#565,#453,#454);
#369=AXIS2_PLACEMENT_3D($,#567,#455,#456);
#370=AXIS2_PLACEMENT_3D($,#568,#457,#458);
#371=AXIS2_PLACEMENT_3D($,#570,#459,#460);
#372=AXIS2_PLACEMENT_3D($,#571,#461,#462);
#373=AXIS2_PLACEMENT_3D($,#573,#463,#464);
#374=AXIS2_PLACEMENT_3D($,#574,#465,#466);
#375=DIRECTION('axis',(0.,0.,1.));
#376=DIRECTION('refdir',(1.,0.,0.));
#377=DIRECTION('center_axis',(0.923879532511287,-0.38268343236509,0.));
#378=DIRECTION('ref_axis',(-0.38268343236509,-0.923879532511287,0.));
#379=DIRECTION($,(0.,0.,-1.));
#380=DIRECTION($,(-0.38268343236509,-0.923879532511287,0.));
#381=DIRECTION($,(0.,0.,-1.));
#382=DIRECTION('center_axis',(0.923879532511287,0.38268343236509,0.));
#383=DIRECTION('ref_axis',(0.38268343236509,-0.923879532511287,0.));
#384=DIRECTION($,(0.,0.,-1.));
#385=DIRECTION($,(0.38268343236509,-0.923879532511287,0.));
#386=DIRECTION('center_axis',(0.38268343236509,0.923879532511287,0.));
#387=DIRECTION('ref_axis',(0.923879532511287,-0.38268343236509,0.));
#388=DIRECTION($,(0.,0.,-1.));
#389=DIRECTION($,(0.923879532511287,-0.38268343236509,0.));
#390=DIRECTION('center_axis',(-0.38268343236509,0.923879532511287,0.));
#391=DIRECTION('ref_axis',(0.923879532511287,0.38268343236509,0.));
#392=DIRECTION($,(0.,0.,-1.));
#393=DIRECTION($,(0.923879532511287,0.38268343236509,0.));
#394=DIRECTION('center_axis',(-0.923879532511287,0.38268343236509,0.));
#395=DIRECTION('ref_axis',(0.38268343236509,0.923879532511287,0.));
#396=DIRECTION($,(0.,0.,-1.));
#397=DIRECTION($,(0.38268343236509,0.923879532511287,0.));
#398=DIRECTION('center_axis',(-0.923879532511287,-0.38268343236509,0.));
#399=DIRECTION('ref_axis',(-0.38268343236509,0.923879532511287,0.));
#400=DIRECTION($,(0.,0.,-1.));
#401=DIRECTION($,(-0.38268343236509,0.923879532511287,0.));
#402=DIRECTION('center_axis',(-0.38268343236509,-0.923879532511287,0.));
#403=DIRECTION('ref_axis',(-0.923879532511287,0.38268343236509,0.));
#404=DIRECTION($,(0.,0.,-1.));
#405=DIRECTION($,(-0.923879532511287,0.38268343236509,0.));
#406=DIRECTION('center_axis',(0.38268343236509,-0.923879532511287,0.));
#407=DIRECTION('ref_axis',(-0.923879532511287,-0.38268343236509,0.));
#408=DIRECTION($,(-0.923879532511287,-0.38268343236509,0.));
#409=DIRECTION('center_axis',(0.,0.,1.));
#410=DIRECTION('ref_axis',(0.,-1.,0.));
#411=DIRECTION('center_axis',(0.,0.,1.));
#412=DIRECTION('ref_axis',(0.,-1.,0.));
#413=DIRECTION('center_axis',(0.,0.,1.));
#414=DIRECTION('ref_axis',(0.,-1.,0.));
#415=DIRECTION('center_axis',(0.,0.,-1.));
#416=DIRECTION('ref_axis',(-1.,0.,0.));
#417=DIRECTION('center_axis',(0.,0.,1.));
#418=DIRECTION('ref_axis',(0.,-1.,0.));
#419=DIRECTION('center_axis',(0.,0.,1.));
#420=DIRECTION('ref_axis',(0.,-1.,0.));
#421=DIRECTION('center_axis',(0.,0.,1.));
#422=DIRECTION('ref_axis',(0.,-1.,0.));
#423=DIRECTION('center_axis',(0.,0.,-1.));
#424=DIRECTION('ref_axis',(-1.,0.,0.));
#425=DIRECTION('center_axis',(0.,0.,1.));
#426=DIRECTION('ref_axis',(0.,-1.,0.));
#427=DIRECTION('center_axis',(0.,0.,1.));
#428=DIRECTION('ref_axis',(0.,-1.,0.));
#429=DIRECTION('center_axis',(0.,0.,1.));
#430=DIRECTION('ref_axis',(0.,-1.,0.));
#431=DIRECTION('center_axis',(0.,0.,-1.));
#432=DIRECTION('ref_axis',(0.,-1.,0.));
#433=DIRECTION('center_axis',(0.,0.,1.));
#434=DIRECTION('ref_axis',(1.,0.,0.));
#435=DIRECTION('center_axis',(0.,0.,1.));
#436=DIRECTION('ref_axis',(0.,-1.,0.));
#437=DIRECTION('center_axis',(0.,0.,1.));
#438=DIRECTION('ref_axis',(0.,-1.,0.));
#439=DIRECTION('center_axis',(0.,0.,1.));
#440=DIRECTION('ref_axis',(0.,-1.,0.));
#441=DIRECTION('center_axis',(0.,0.,1.));
#442=DIRECTION('ref_axis',(1.,0.,0.));
#443=DIRECTION('center_axis',(0.,0.,1.));
#444=DIRECTION('ref_axis',(0.,-1.,0.));
#445=DIRECTION('center_axis',(0.,0.,1.));
#446=DIRECTION('ref_axis',(0.,-1.,0.));
#447=DIRECTION('center_axis',(0.,0.,1.));
#448=DIRECTION('ref_axis',(0.,-1.,0.));
#449=DIRECTION('center_axis',(0.,0.,1.));
#450=DIRECTION('ref_axis',(1.,0.,0.));
#451=DIRECTION('center_axis',(0.,0.,1.));
#452=DIRECTION('ref_axis',(0.,-1.,0.));
#453=DIRECTION('center_axis',(0.,0.,1.));
#454=DIRECTION('ref_axis',(0.,-1.,0.));
#455=DIRECTION('center_axis',(0.,0.,1.));
#456=DIRECTION('ref_axis',(0.,-1.,0.));
#457=DIRECTION('center_axis',(0.,0.,-1.));
#458=DIRECTION('ref_axis',(0.,-1.,0.));
#459=DIRECTION('center_axis',(0.,0.,1.));
#460=DIRECTION('ref_axis',(0.,-1.,0.));
#461=DIRECTION('center_axis',(0.,0.,1.));
#462=DIRECTION('ref_axis',(0.,-1.,0.));
#463=DIRECTION('center_axis',(0.,0.,1.));
#464=DIRECTION('ref_axis',(0.,-1.,0.));
#465=DIRECTION('center_axis',(0.,0.,-1.));
#466=DIRECTION('ref_axis',(-1.,0.,0.));
#467=CARTESIAN_POINT('',(0.,0.,0.));
#468=CARTESIAN_POINT('Origin',(15.4240888541666,-5.96015528268124E-015,
26.5));
#469=CARTESIAN_POINT('',(15.4240888541666,-5.96015528268124E-015,18.9184165415759));
#470=CARTESIAN_POINT('',(10.9064778224051,-10.9064778224051,18.9184165415759));
#471=CARTESIAN_POINT('Ctrl Pts',(15.4240888541666,-1.54670000075251E-013,
18.9184165415759));
#472=CARTESIAN_POINT('Ctrl Pts',(13.1652833382858,-5.45323891120254,19.5236616554151));
#473=CARTESIAN_POINT('Ctrl Pts',(10.9064778224051,-10.9064778224049,18.9184165415759));
#474=CARTESIAN_POINT('',(15.4240888541666,-5.96015528268124E-015,26.5));
#475=CARTESIAN_POINT($,(15.4240888541666,-5.96015528268124E-015,26.5));
#476=CARTESIAN_POINT('',(10.9064778224051,-10.9064778224051,26.5));
#477=CARTESIAN_POINT($,(15.4240888541666,-5.96015528268124E-015,26.5));
#478=CARTESIAN_POINT($,(10.9064778224051,-10.9064778224051,26.5));
#479=CARTESIAN_POINT('Origin',(10.9064778224051,10.9064778224051,26.5));
#480=CARTESIAN_POINT('',(10.9064778224051,10.9064778224051,18.9184165415759));
#481=CARTESIAN_POINT('Ctrl Pts',(10.9064778224051,10.9064778224049,18.9184165415759));
#482=CARTESIAN_POINT('Ctrl Pts',(13.1652833382858,5.45323891120253,19.5236616554151));
#483=CARTESIAN_POINT('Ctrl Pts',(15.4240888541666,1.43622142927019E-013,
18.9184165415759));
#484=CARTESIAN_POINT('',(10.9064778224051,10.9064778224051,26.5));
#485=CARTESIAN_POINT($,(10.9064778224051,10.9064778224051,26.5));
#486=CARTESIAN_POINT($,(10.9064778224051,10.9064778224051,26.5));
#487=CARTESIAN_POINT('Origin',(1.35709170989621E-016,15.4240888541666,26.5));
#488=CARTESIAN_POINT('',(1.35709170989621E-016,15.4240888541666,18.9184165415759));
#489=CARTESIAN_POINT('Ctrl Pts',(1.84499214375478E-013,15.4240888541665,
18.9184165415759));
#490=CARTESIAN_POINT('Ctrl Pts',(5.45323891120253,13.1652833382858,19.5236616554151));
#491=CARTESIAN_POINT('Ctrl Pts',(10.9064778224049,10.9064778224051,18.9184165415759));
#492=CARTESIAN_POINT('',(1.35709170989621E-016,15.4240888541666,26.5));
#493=CARTESIAN_POINT($,(1.35709170989621E-016,15.4240888541666,26.5));
#494=CARTESIAN_POINT($,(1.35709170989621E-016,15.4240888541666,26.5));
#495=CARTESIAN_POINT('Origin',(-10.9064778224051,10.9064778224051,26.5));
#496=CARTESIAN_POINT('',(-10.9064778224051,10.9064778224051,18.9184165415759));
#497=CARTESIAN_POINT('Ctrl Pts',(-10.9064778224049,10.9064778224051,18.9184165415759));
#498=CARTESIAN_POINT('Ctrl Pts',(-5.45323891120254,13.1652833382858,19.5236616554151));
#499=CARTESIAN_POINT('Ctrl Pts',(-1.72346571512423E-013,15.4240888541665,
18.9184165415759));
#500=CARTESIAN_POINT('',(-10.9064778224051,10.9064778224051,26.5));
#501=CARTESIAN_POINT($,(-10.9064778224051,10.9064778224051,26.5));
#502=CARTESIAN_POINT($,(-10.9064778224051,10.9064778224051,26.5));
#503=CARTESIAN_POINT('Origin',(-15.4240888541666,-1.71907960023509E-015,
26.5));
#504=CARTESIAN_POINT('',(-15.4240888541666,-1.7190796002351E-015,18.9184165415759));
#505=CARTESIAN_POINT('Ctrl Pts',(-15.4240888541666,1.43622142927019E-013,
18.9184165415759));
#506=CARTESIAN_POINT('Ctrl Pts',(-13.1652833382858,5.45323891120253,19.5236616554151));
#507=CARTESIAN_POINT('Ctrl Pts',(-10.9064778224051,10.9064778224049,18.9184165415759));
#508=CARTESIAN_POINT('',(-15.4240888541666,-1.71907960023509E-015,26.5));
#509=CARTESIAN_POINT($,(-15.4240888541666,-1.71907960023509E-015,26.5));
#510=CARTESIAN_POINT($,(-15.4240888541666,-1.71907960023509E-015,26.5));
#511=CARTESIAN_POINT('Origin',(-10.9064778224051,-10.9064778224051,26.5));
#512=CARTESIAN_POINT('',(-10.9064778224051,-10.9064778224051,18.9184165415759));
#513=CARTESIAN_POINT('Ctrl Pts',(-10.9064778224051,-10.9064778224049,18.9184165415759));
#514=CARTESIAN_POINT('Ctrl Pts',(-13.1652833382858,-5.45323891120253,19.5236616554151));
#515=CARTESIAN_POINT('Ctrl Pts',(-15.4240888541666,-1.41412571497373E-013,
18.9184165415759));
#516=CARTESIAN_POINT('',(-10.9064778224051,-10.9064778224051,26.5));
#517=CARTESIAN_POINT($,(-10.9064778224051,-10.9064778224051,26.5));
#518=CARTESIAN_POINT($,(-10.9064778224051,-10.9064778224051,26.5));
#519=CARTESIAN_POINT('Origin',(-2.6274105002256E-015,-15.4240888541666,
26.5));
#520=CARTESIAN_POINT('',(-2.6274105002256E-015,-15.4240888541666,18.9184165415759));
#521=CARTESIAN_POINT('Ctrl Pts',(-1.48041285786312E-013,-15.4240888541666,
18.9184165415759));
#522=CARTESIAN_POINT('Ctrl Pts',(-5.45323891120253,-13.1652833382858,19.5236616554151));
#523=CARTESIAN_POINT('Ctrl Pts',(-10.9064778224049,-10.9064778224051,18.9184165415759));
#524=CARTESIAN_POINT('',(-2.6274105002256E-015,-15.4240888541666,26.5));
#525=CARTESIAN_POINT($,(-2.6274105002256E-015,-15.4240888541666,26.5));
#526=CARTESIAN_POINT($,(-2.6274105002256E-015,-15.4240888541666,26.5));
#527=CARTESIAN_POINT('Origin',(10.9064778224051,-10.9064778224051,26.5));
#528=CARTESIAN_POINT('Ctrl Pts',(10.9064778224049,-10.9064778224051,18.9184165415759));
#529=CARTESIAN_POINT('Ctrl Pts',(5.45323891120253,-13.1652833382858,19.5236616554151));
#530=CARTESIAN_POINT('Ctrl Pts',(1.53565214360428E-013,-15.4240888541666,
18.9184165415759));
#531=CARTESIAN_POINT($,(10.9064778224051,-10.9064778224051,26.5));
#532=CARTESIAN_POINT('Origin',(0.,0.,6.9));
#533=CARTESIAN_POINT('',(0.,-13.2205,13.8));
#534=CARTESIAN_POINT('Origin',(0.,0.,13.8));
#535=CARTESIAN_POINT('',(0.,-13.2205,0.));
#536=CARTESIAN_POINT('Origin',(0.,0.,0.));
#537=CARTESIAN_POINT('Origin',(0.,-13.36025,13.8));
#538=CARTESIAN_POINT('',(0.,-13.5,13.8));
#539=CARTESIAN_POINT('Origin',(0.,0.,13.8));
#540=CARTESIAN_POINT('Origin',(0.,0.,15.2));
#541=CARTESIAN_POINT('',(0.,-13.5,16.6));
#542=CARTESIAN_POINT('Origin',(0.,0.,16.6));
#543=CARTESIAN_POINT('Origin',(0.,-15.25,16.6));
#544=CARTESIAN_POINT('',(0.,-17.,16.6));
#545=CARTESIAN_POINT('Origin',(0.,0.,16.6));
#546=CARTESIAN_POINT('Origin',(0.,0.,17.5480762113533));
#547=CARTESIAN_POINT('',(0.,-17.,18.4961524227066));
#548=CARTESIAN_POINT('Origin',(0.,0.,18.4961524227066));
#549=CARTESIAN_POINT('Origin',(0.,0.,18.8980762113533));
#550=CARTESIAN_POINT('Origin',(0.,-12.5,26.5));
#551=CARTESIAN_POINT('',(0.,-11.,26.5));
#552=CARTESIAN_POINT('Origin',(0.,0.,26.5));
#553=CARTESIAN_POINT('Origin',(0.,0.,30.95));
#554=CARTESIAN_POINT('',(0.,-11.,35.4));
#555=CARTESIAN_POINT('Origin',(0.,0.,35.4));
#556=CARTESIAN_POINT('Origin',(0.,-9.825,35.4));
#557=CARTESIAN_POINT('',(0.,-8.65,35.4));
#558=CARTESIAN_POINT('Origin',(0.,0.,35.4));
#559=CARTESIAN_POINT('Origin',(0.,0.,34.9));
#560=CARTESIAN_POINT('',(0.,-8.65,34.4));
#561=CARTESIAN_POINT('Origin',(0.,0.,34.4));
#562=CARTESIAN_POINT('Origin',(0.,-8.0625,34.4));
#563=CARTESIAN_POINT('',(0.,-7.475,34.4));
#564=CARTESIAN_POINT('Origin',(0.,0.,34.4));
#565=CARTESIAN_POINT('Origin',(0.,0.,29.2));
#566=CARTESIAN_POINT('',(0.,-7.475,24.));
#567=CARTESIAN_POINT('Origin',(0.,0.,24.));
#568=CARTESIAN_POINT('Origin',(0.,0.,21.65));
#569=CARTESIAN_POINT('',(0.,-9.6,19.3));
#570=CARTESIAN_POINT('Origin',(0.,0.,19.3));
#571=CARTESIAN_POINT('Origin',(0.,0.,9.65));
#572=CARTESIAN_POINT('',(0.,-9.6,0.));
#573=CARTESIAN_POINT('Origin',(0.,0.,0.));
#574=CARTESIAN_POINT('Origin',(0.,-11.41025,0.));
#575=UNCERTAINTY_MEASURE_WITH_UNIT(LENGTH_MEASURE(0.01),#577,
'DISTANCE_ACCURACY_VALUE',
'Maximum model space distance between geometric entities at asserted c
onnectivities');
#576=(
GEOMETRIC_REPRESENTATION_CONTEXT(3)
GLOBAL_UNCERTAINTY_ASSIGNED_CONTEXT((#575))
GLOBAL_UNIT_ASSIGNED_CONTEXT((#577,#580,#578))
REPRESENTATION_CONTEXT('','3D')
);
#577=(
LENGTH_UNIT()
NAMED_UNIT(*)
SI_UNIT(.MILLI.,.METRE.)
);
#578=(
NAMED_UNIT(*)
SI_UNIT($,.STERADIAN.)
SOLID_ANGLE_UNIT()
);
#579=DIMENSIONAL_EXPONENTS(0.,0.,0.,0.,0.,0.,0.);
#580=(
CONVERSION_BASED_UNIT('degree',#582)
NAMED_UNIT(#579)
PLANE_ANGLE_UNIT()
);
#581=(
NAMED_UNIT(*)
PLANE_ANGLE_UNIT()
SI_UNIT($,.RADIAN.)
);
#582=PLANE_ANGLE_MEASURE_WITH_UNIT(PLANE_ANGLE_MEASURE(0.01745329252),#581);
#583=SHAPE_DEFINITION_REPRESENTATION(#584,#585);
#584=PRODUCT_DEFINITION_SHAPE('',$,#587);
#585=SHAPE_REPRESENTATION('',(#337),#576);
#586=PRODUCT_DEFINITION_CONTEXT('3D Mechanical Parts',#590,'design');
#587=PRODUCT_DEFINITION('RFV034038','RFV034038',#588,#586);
#588=PRODUCT_DEFINITION_FORMATION('',$,#592);
#589=APPLICATION_PROTOCOL_DEFINITION('international standard',
'automotive_design',2009,#590);
#590=APPLICATION_CONTEXT(
'Core Data for Automotive Mechanical Design Process');
#591=PRODUCT_CONTEXT('3D Mechanical Parts',#590,'mechanical');
#592=PRODUCT('RFV034038','RFV034038',$,(#591));
#593=PRESENTATION_STYLE_ASSIGNMENT((#595));
#594=PRESENTATION_STYLE_ASSIGNMENT((#596));
#595=SURFACE_STYLE_USAGE(.BOTH.,#597);
#596=SURFACE_STYLE_USAGE(.BOTH.,#598);
#597=SURFACE_SIDE_STYLE($,(#599));
#598=SURFACE_SIDE_STYLE($,(#600));
#599=SURFACE_STYLE_FILL_AREA(#601);
#600=SURFACE_STYLE_FILL_AREA(#602);
#601=FILL_AREA_STYLE($,(#603));
#602=FILL_AREA_STYLE($,(#604));
#603=FILL_AREA_STYLE_COLOUR($,#605);
#604=FILL_AREA_STYLE_COLOUR($,#606);
#605=COLOUR_RGB('',0.509803921568627,0.509803921568627,0.588235294117647);
#606=COLOUR_RGB('',1.,0.,0.);
ENDSEC;
END-ISO-10303-21;
